  0
SECTION
  2
HEADER
  9
$ACADVER
  1
AC1015
  9
$ACADMAINTVER
 70
     6
  9
$DWGCODEPAGE
  3
ANSI_1254
  9
$INSBASE
 10
0.0
 20
0.0
 30
0.0
  9
$EXTMIN
 10
0.0
 20
0.0
 30
0.0
  9
$EXTMAX
 10
279.4
 20
215.9
 30
0.0
  9
$LIMMIN
 10
0.0
 20
0.0
  9
$LIMMAX
 10
279.4
 20
215.9
  9
$ORTHOMODE
 70
     0
  9
$REGENMODE
 70
     1
  9
$FILLMODE
 70
     1
  9
$QTEXTMODE
 70
     0
  9
$MIRRTEXT
 70
     1
  9
$LTSCALE
 40
1.0
  9
$ATTMODE
 70
     1
  9
$TEXTSIZE
 40
3.5
  9
$TRACEWID
 40
1.0
  9
$TEXTSTYLE
  7
Standard
  9
$CLAYER
  8
0
  9
$CELTYPE
  6
ByLayer
  9
$CECOLOR
 62
   256
  9
$CELTSCALE
 40
1.0
  9
$DISPSILH
 70
     0
  9
$DIMSCALE
 40
1.0
  9
$DIMASZ
 40
3.5
  9
$DIMEXO
 40
1.0
  9
$DIMDLI
 40
3.75
  9
$DIMRND
 40
0.0
  9
$DIMDLE
 40
0.0
  9
$DIMEXE
 40
1.0
  9
$DIMTP
 40
0.0
  9
$DIMTM
 40
0.0
  9
$DIMTXT
 40
3.5
  9
$DIMCEN
 40
2.5
  9
$DIMTSZ
 40
0.0
  9
$DIMTOL
 70
     0
  9
$DIMLIM
 70
     0
  9
$DIMTIH
 70
     1
  9
$DIMTOH
 70
     1
  9
$DIMSE1
 70
     0
  9
$DIMSE2
 70
     0
  9
$DIMTAD
 70
     1
  9
$DIMZIN
 70
     0
  9
$DIMBLK
  1

  9
$DIMASO
 70
     1
  9
$DIMSHO
 70
     1
  9
$DIMPOST
  1

  9
$DIMAPOST
  1

  9
$DIMALT
 70
     0
  9
$DIMALTD
 70
     3
  9
$DIMALTF
 40
0.0393700787
  9
$DIMLFAC
 40
1.0
  9
$DIMTOFL
 70
     1
  9
$DIMTVP
 40
0.0
  9
$DIMTIX
 70
     0
  9
$DIMSOXD
 70
     0
  9
$DIMSAH
 70
     0
  9
$DIMBLK1
  1

  9
$DIMBLK2
  1

  9
$DIMSTYLE
  2
ISO-25
  9
$DIMCLRD
 70
     0
  9
$DIMCLRE
 70
     0
  9
$DIMCLRT
 70
     0
  9
$DIMTFAC
 40
1.0
  9
$DIMGAP
 40
1.524
  9
$DIMJUST
 70
     0
  9
$DIMSD1
 70
     0
  9
$DIMSD2
 70
     0
  9
$DIMTOLJ
 70
     0
  9
$DIMTZIN
 70
     0
  9
$DIMALTZ
 70
     0
  9
$DIMALTTZ
 70
     0
  9
$DIMUPT
 70
     0
  9
$DIMDEC
 70
     2
  9
$DIMTDEC
 70
     2
  9
$DIMALTU
 70
     2
  9
$DIMALTTD
 70
     3
  9
$DIMTXSTY
  7
Standard
  9
$DIMAUNIT
 70
     0
  9
$DIMADEC
 70
     2
  9
$DIMALTRND
 40
0.0
  9
$DIMAZIN
 70
     0
  9
$DIMDSEP
 70
    44
  9
$DIMATFIT
 70
     3
  9
$DIMFRAC
 70
     0
  9
$DIMLDRBLK
  1

  9
$DIMLUNIT
 70
     2
  9
$DIMLWD
 70
    -2
  9
$DIMLWE
 70
    -2
  9
$DIMTMOVE
 70
     0
  9
$LUNITS
 70
     2
  9
$LUPREC
 70
     2
  9
$SKETCHINC
 40
1.0
  9
$FILLETRAD
 40
10.0
  9
$AUNITS
 70
     0
  9
$AUPREC
 70
     2
  9
$MENU
  1
.
  9
$ELEVATION
 40
0.0
  9
$PELEVATION
 40
0.0
  9
$THICKNESS
 40
0.0
  9
$LIMCHECK
 70
     0
  9
$CHAMFERA
 40
0.0
  9
$CHAMFERB
 40
0.0
  9
$CHAMFERC
 40
0.0
  9
$CHAMFERD
 40
0.0
  9
$SKPOLY
 70
     0
  9
$TDCREATE
 40
2458985.683166401
  9
$TDUCREATE
 40
2458985.558166401
  9
$TDUPDATE
 40
2458985.683166759
  9
$TDUUPDATE
 40
2458985.558166759
  9
$TDINDWG
 40
0.0000000116
  9
$TDUSRTIMER
 40
0.0000000116
  9
$USRTIMER
 70
     1
  9
$ANGBASE
 50
0.0
  9
$ANGDIR
 70
     0
  9
$PDMODE
 70
     0
  9
$PDSIZE
 40
-1.0
  9
$PLINEWID
 40
0.0
  9
$SPLFRAME
 70
     0
  9
$SPLINETYPE
 70
     6
  9
$SPLINESEGS
 70
     8
  9
$HANDSEED
  5
CB
  9
$SURFTAB1
 70
     6
  9
$SURFTAB2
 70
     6
  9
$SURFTYPE
 70
     6
  9
$SURFU
 70
     6
  9
$SURFV
 70
     6
  9
$UCSBASE
  2

  9
$UCSNAME
  2

  9
$UCSORG
 10
0.0
 20
0.0
 30
0.0
  9
$UCSXDIR
 10
1.0
 20
0.0
 30
0.0
  9
$UCSYDIR
 10
0.0
 20
1.0
 30
0.0
  9
$UCSORTHOREF
  2

  9
$UCSORTHOVIEW
 70
     0
  9
$UCSORGTOP
 10
0.0
 20
0.0
 30
0.0
  9
$UCSORGBOTTOM
 10
0.0
 20
0.0
 30
0.0
  9
$UCSORGLEFT
 10
0.0
 20
0.0
 30
0.0
  9
$UCSORGRIGHT
 10
0.0
 20
0.0
 30
0.0
  9
$UCSORGFRONT
 10
0.0
 20
0.0
 30
0.0
  9
$UCSORGBACK
 10
0.0
 20
0.0
 30
0.0
  9
$PUCSBASE
  2

  9
$PUCSNAME
  2

  9
$PUCSORG
 10
0.0
 20
0.0
 30
0.0
  9
$PUCSXDIR
 10
1.0
 20
0.0
 30
0.0
  9
$PUCSYDIR
 10
0.0
 20
1.0
 30
0.0
  9
$PUCSORTHOREF
  2

  9
$PUCSORTHOVIEW
 70
     0
  9
$PUCSORGTOP
 10
0.0
 20
0.0
 30
0.0
  9
$PUCSORGBOTTOM
 10
0.0
 20
0.0
 30
0.0
  9
$PUCSORGLEFT
 10
0.0
 20
0.0
 30
0.0
  9
$PUCSORGRIGHT
 10
0.0
 20
0.0
 30
0.0
  9
$PUCSORGFRONT
 10
0.0
 20
0.0
 30
0.0
  9
$PUCSORGBACK
 10
0.0
 20
0.0
 30
0.0
  9
$USERI1
 70
     0
  9
$USERI2
 70
     0
  9
$USERI3
 70
     0
  9
$USERI4
 70
     0
  9
$USERI5
 70
     0
  9
$USERR1
 40
0.0
  9
$USERR2
 40
0.0
  9
$USERR3
 40
0.0
  9
$USERR4
 40
0.0
  9
$USERR5
 40
0.0
  9
$WORLDVIEW
 70
     1
  9
$SHADEDGE
 70
     3
  9
$SHADEDIF
 70
    70
  9
$TILEMODE
 70
     1
  9
$MAXACTVP
 70
    64
  9
$PINSBASE
 10
0.0
 20
0.0
 30
0.0
  9
$PLIMCHECK
 70
     0
  9
$PEXTMIN
 10
1.0000000000E+20
 20
1.0000000000E+20
 30
1.0000000000E+20
  9
$PEXTMAX
 10
-1.0000000000E+20
 20
-1.0000000000E+20
 30
-1.0000000000E+20
  9
$PLIMMIN
 10
0.0
 20
0.0
  9
$PLIMMAX
 10
420.0
 20
297.0
  9
$UNITMODE
 70
     0
  9
$VISRETAIN
 70
     1
  9
$PLINEGEN
 70
     0
  9
$PSLTSCALE
 70
     1
  9
$TREEDEPTH
 70
  3020
  9
$CMLSTYLE
  2
Standard
  9
$CMLJUST
 70
     0
  9
$CMLSCALE
 40
20.0
  9
$PROXYGRAPHICS
 70
     1
  9
$MEASUREMENT
 70
     1
  9
$CELWEIGHT
370
    -1
  9
$ENDCAPS
280
     0
  9
$JOINSTYLE
280
     0
  9
$LWDISPLAY
290
     1
  9
$INSUNITS
 70
     4
  9
$HYPERLINKBASE
  1

  9
$STYLESHEET
  1

  9
$XEDIT
290
     1
  9
$CEPSNTYPE
380
     0
  9
$PSTYLEMODE
290
     1
  9
$FINGERPRINTGUID
  2
{465fc713-664c-4438-97a0-7c701387be80}
  9
$VERSIONGUID
  2
{FAEB1C32-E019-11D5-929B-00C0DF256EC4}
  9
$EXTNAMES
290
     1
  9
$PSVPSCALE
 40
0.0
  9
$OLESTARTUP
290
     0
  0
ENDSEC
  0
SECTION
  2
CLASSES
  0
CLASS
  1
ACDBDICTIONARYWDFLT
  2
AcDbDictionaryWithDefault
  3
ObjectDBX Classes
 90
        0
280
     0
281
     0
  0
CLASS
  1
VISUALSTYLE
  2
AcDbVisualStyle
  3
ObjectDBX Classes
 90
     4095
280
     0
281
     0
  0
CLASS
  1
MATERIAL
  2
AcDbMaterial
  3
ObjectDBX Classes
 90
     1153
280
     0
281
     0
  0
CLASS
  1
SCALE
  2
AcDbScale
  3
ObjectDBX Classes
 90
     1153
280
     0
281
     0
  0
CLASS
  1
TABLESTYLE
  2
AcDbTableStyle
  3
ObjectDBX Classes
 90
     4095
280
     0
281
     0
  0
CLASS
  1
MLEADERSTYLE
  2
AcDbMLeaderStyle
  3
ACDB_MLEADERSTYLE_CLASS
 90
     4095
280
     0
281
     0
  0
CLASS
  1
SUN
  2
AcDbSun
  3
SCENEOE
 90
     1153
280
     0
281
     0
  0
CLASS
  1
ACDBPLACEHOLDER
  2
AcDbPlaceHolder
  3
ObjectDBX Classes
 90
        0
280
     0
281
     0
  0
CLASS
  1
LAYOUT
  2
AcDbLayout
  3
ObjectDBX Classes
 90
        0
280
     0
281
     0
  0
ENDSEC
  0
SECTION
  2
TABLES
  0
TABLE
  2
VPORT
  5
8
330
0
100
AcDbSymbolTable
 70
     1
  0
VPORT
  5
29
330
8
100
AcDbSymbolTableRecord
100
AcDbViewportTableRecord
  2
*Active
 70
     0
 10
0.0
 20
0.0
 11
1.0
 21
1.0
 12
139.7
 22
107.95
 13
0.0
 23
0.0
 14
10.0
 24
10.0
 15
10.0
 25
10.0
 16
0.0
 26
0.0
 36
1.0
 17
0.0
 27
0.0
 37
0.0
 40
215.9
 41
1.2941176471
 42
50.0
 43
0.0
 44
0.0
 50
0.0
 51
0.0
 71
     0
 72
  2000
 73
     1
 74
     3
 75
     0
 76
     0
 77
     0
 78
     0
281
     0
 65
     1
110
0.0
120
0.0
130
0.0
111
1.0
121
0.0
131
0.0
112
0.0
122
1.0
132
0.0
 79
     0
146
0.0
  0
ENDTAB
  0
TABLE
  2
LTYPE
  5
5
330
0
100
AcDbSymbolTable
 70
     6
  0
LTYPE
  5
14
330
5
100
AcDbSymbolTableRecord
100
AcDbLinetypeTableRecord
  2
ByBlock
 70
     0
  3

 72
    65
 73
     0
 40
0.0
  0
LTYPE
  5
15
330
5
100
AcDbSymbolTableRecord
100
AcDbLinetypeTableRecord
  2
ByLayer
 70
     0
  3

 72
    65
 73
     0
 40
0.0
  0
LTYPE
  5
16
330
5
100
AcDbSymbolTableRecord
100
AcDbLinetypeTableRecord
  2
Continuous
 70
     0
  3
Solid line
 72
    65
 73
     0
 40
0.0
  0
LTYPE
  5
6E
330
5
100
AcDbSymbolTableRecord
100
AcDbLinetypeTableRecord
  2
HIDDEN
 70
     0
  3
Hidden __ __ __ __ __ __ __ __ __ __ __ __ __ __
 72
    65
 73
     2
 40
1.905
 49
1.27
 74
     0
 49
-0.635
 74
     0
  0
LTYPE
  5
6F
330
5
100
AcDbSymbolTableRecord
100
AcDbLinetypeTableRecord
  2
PHANTOM
 70
     0
  3
Phantom ______  __  __  ______  __  __  ______
 72
    65
 73
     6
 40
12.7
 49
6.35
 74
     0
 49
-1.27
 74
     0
 49
1.27
 74
     0
 49
-1.27
 74
     0
 49
1.27
 74
     0
 49
-1.27
 74
     0
  0
LTYPE
  5
70
330
5
100
AcDbSymbolTableRecord
100
AcDbLinetypeTableRecord
  2
CENTER
 70
     0
  3
Center ____ _ ____ _ ____ _ ____ _ ____ _ ____
 72
    65
 73
     4
 40
10.16
 49
6.35
 74
     0
 49
-1.27
 74
     0
 49
1.27
 74
     0
 49
-1.27
 74
     0
  0
LTYPE
  5
71
330
5
100
AcDbSymbolTableRecord
100
AcDbLinetypeTableRecord
  2
CENTERX2
 70
     0
  3
Center (2x) ________  __  ________  __  _____
 72
    65
 73
     4
 40
20.32
 49
12.7
 74
     0
 49
-2.54
 74
     0
 49
2.54
 74
     0
 49
-2.54
 74
     0
  0
LTYPE
  5
72
330
5
100
AcDbSymbolTableRecord
100
AcDbLinetypeTableRecord
  2
DOT2
 70
     0
  3
Dot (.5x) ........................................
 72
    65
 73
     2
 40
0.635
 49
0.0
 74
     0
 49
-0.635
 74
     0
  0
ENDTAB
  0
TABLE
  2
LAYER
  5
2
330
0
100
AcDbSymbolTable
 70
    17
  0
LAYER
  5
10
330
2
100
AcDbSymbolTableRecord
100
AcDbLayerTableRecord
  2
0
 70
     0
 62
     7
  6
Continuous
370
    -3
390
F
  0
LAYER
  5
73
330
2
100
AcDbSymbolTableRecord
100
AcDbLayerTableRecord
  2
FORMAT
 70
     0
 62
     7
  6
Continuous
370
    -3
390
F
  0
LAYER
  5
74
330
2
100
AcDbSymbolTableRecord
100
AcDbLayerTableRecord
  2
YARDIMCI_GEOMETRI
 70
     0
 62
    -6
  6
Continuous
290
     0
370
    -3
390
F
  0
LAYER
  5
75
330
2
100
AcDbSymbolTableRecord
100
AcDbLayerTableRecord
  2
SAYFA_CERCEVESI
 70
     0
 62
     7
  6
Continuous
370
    25
390
F
  0
LAYER
  5
76
330
2
100
AcDbSymbolTableRecord
100
AcDbLayerTableRecord
  2
ANTET
 70
     0
 62
     7
  6
Continuous
370
    -3
390
F
  0
LAYER
  5
77
330
2
100
AcDbSymbolTableRecord
100
AcDbLayerTableRecord
  2
OLCU
 70
     0
 62
   150
  6
Continuous
370
    -3
390
F
  0
LAYER
  5
78
330
2
100
AcDbSymbolTableRecord
100
AcDbLayerTableRecord
  2
METIN
 70
     0
 62
    96
  6
Continuous
370
    -3
390
F
  0
LAYER
  5
79
330
2
100
AcDbSymbolTableRecord
100
AcDbLayerTableRecord
  2
BALON
 70
     0
 62
     5
  6
Continuous
370
    -3
390
F
  0
LAYER
  5
7A
330
2
100
AcDbSymbolTableRecord
100
AcDbLayerTableRecord
  2
VURGU
 70
     0
 62
     7
  6
Continuous
370
    -3
390
F
  0
LAYER
  5
7B
330
2
100
AcDbSymbolTableRecord
100
AcDbLayerTableRecord
  2
SILIK
 70
     0
 62
     7
  6
Continuous
370
    -3
390
F
  0
LAYER
  5
7C
330
2
100
AcDbSymbolTableRecord
100
AcDbLayerTableRecord
  2
MODEL
 70
     0
 62
     7
  6
Continuous
370
    -3
390
F
  0
LAYER
  5
7D
330
2
100
AcDbSymbolTableRecord
100
AcDbLayerTableRecord
  2
DETAYLANDıRMA
 70
     0
 62
   190
  6
Continuous
370
    -3
390
F
  0
LAYER
  5
7E
330
2
100
AcDbSymbolTableRecord
100
AcDbLayerTableRecord
  2
TOLERANS
 70
     0
 62
   230
  6
Continuous
370
    -3
390
F
  0
LAYER
  5
7F
330
2
100
AcDbSymbolTableRecord
100
AcDbLayerTableRecord
  2
MERKEZ_CIZGILERI
 70
     0
 62
    30
  6
Continuous
370
    -3
390
F
  0
LAYER
  5
80
330
2
100
AcDbSymbolTableRecord
100
AcDbLayerTableRecord
  2
KESIT-DETAY_CIZGILERI
 70
     0
 62
     7
  6
Continuous
370
    -3
390
F
  0
LAYER
  5
81
330
2
100
AcDbSymbolTableRecord
100
AcDbLayerTableRecord
  2
\U+041E\U+0421\U+0415\U+0412\U+042B\U+0415
 70
     0
 62
     7
  6
Continuous
370
    -3
390
F
  0
LAYER
  5
82
330
2
100
AcDbSymbolTableRecord
100
AcDbLayerTableRecord
  2
\U+0412\U+041E\U+0414\U+042F\U+041D\U+042B\U+0415_\U+0417\U+041D\U+0410\U+041A\U+0418
 70
     0
 62
    11
  6
Continuous
370
    -3
390
F
  0
ENDTAB
  0
TABLE
  2
STYLE
  5
3
330
0
100
AcDbSymbolTable
 70
     1
  0
STYLE
  5
11
330
3
100
AcDbSymbolTableRecord
100
AcDbTextStyleTableRecord
  2
Standard
 70
     0
 40
0.0
 41
1.0
 50
0.0
 71
     0
 42
3.5
  3
txt
  4

  0
ENDTAB
  0
TABLE
  2
VIEW
  5
6
330
0
100
AcDbSymbolTable
 70
     0
  0
ENDTAB
  0
TABLE
  2
UCS
  5
7
330
0
100
AcDbSymbolTable
 70
     0
  0
ENDTAB
  0
TABLE
  2
APPID
  5
9
330
0
100
AcDbSymbolTable
 70
     1
  0
APPID
  5
12
330
9
100
AcDbSymbolTableRecord
100
AcDbRegAppTableRecord
  2
ACAD
 70
     0
  0
ENDTAB
  0
TABLE
  2
DIMSTYLE
  5
A
330
0
100
AcDbSymbolTable
 70
     1
100
AcDbDimStyleTable
  0
DIMSTYLE
105
27
330
A
100
AcDbSymbolTableRecord
100
AcDbDimStyleTableRecord
  2
ISO-25
 70
     0
 41
2.5
 42
0.625
 43
3.75
 44
1.25
 73
     0
 74
     0
 77
     1
 78
     8
140
2.5
141
2.5
143
0.0393700787
147
0.625
171
     3
172
     1
178
     0
271
     2
272
     2
274
     3
278
    44
283
     0
284
     8
340
11
  0
ENDTAB
  0
TABLE
  2
BLOCK_RECORD
  5
1
330
0
100
AcDbSymbolTable
 70
     3
  0
BLOCK_RECORD
  5
1F
330
1
100
AcDbSymbolTableRecord
100
AcDbBlockTableRecord
  2
*Model_Space
340
22
  0
BLOCK_RECORD
  5
1B
330
1
100
AcDbSymbolTableRecord
100
AcDbBlockTableRecord
  2
*Paper_Space
340
1E
  0
BLOCK_RECORD
  5
23
330
1
100
AcDbSymbolTableRecord
100
AcDbBlockTableRecord
  2
*Paper_Space0
340
26
  0
BLOCK_RECORD
  5
88
330
1
100
AcDbSymbolTableRecord
100
AcDbBlockTableRecord
  2
SW_CENTERMARKSYMBOL_0
340
0
102
{BLKREFS
331
93
102
}
  0
BLOCK_RECORD
  5
B2
330
1
100
AcDbSymbolTableRecord
100
AcDbBlockTableRecord
  2
SW_CENTERMARKSYMBOL_1
340
0
102
{BLKREFS
331
BD
102
}
  0
ENDTAB
  0
ENDSEC
  0
SECTION
  2
BLOCKS
  0
BLOCK
  5
20
330
1F
100
AcDbEntity
  8
0
100
AcDbBlockBegin
  2
*Model_Space
 70
     0
 10
0.0
 20
0.0
 30
0.0
  3
*Model_Space
  1

  0
ENDBLK
  5
21
330
1F
100
AcDbEntity
  8
0
100
AcDbBlockEnd
  0
BLOCK
  5
1C
330
1B
100
AcDbEntity
 67
     1
  8
0
100
AcDbBlockBegin
  2
*Paper_Space
 70
     0
 10
0.0
 20
0.0
 30
0.0
  3
*Paper_Space
  1

  0
ENDBLK
  5
1D
330
1B
100
AcDbEntity
 67
     1
  8
0
100
AcDbBlockEnd
  0
BLOCK
  5
24
330
23
100
AcDbEntity
  8
0
100
AcDbBlockBegin
  2
*Paper_Space0
 70
     0
 10
0.0
 20
0.0
 30
0.0
  3
*Paper_Space0
  1

  0
ENDBLK
  5
25
330
23
100
AcDbEntity
  8
0
100
AcDbBlockEnd
  0
BLOCK
  5
89
330
88
100
AcDbEntity
  8
0
100
AcDbBlockBegin
  2
SW_CENTERMARKSYMBOL_0
 70
     0
 10
0.0
 20
0.0
 30
0.0
  3
SW_CENTERMARKSYMBOL_0
  1

  0
LINE
  5
8B
330
88
100
AcDbEntity
  8
FORMAT
 62
     0
100
AcDbLine
 10
0.0
 20
0.0
 30
0.0
 11
0.0
 21
2.5
 31
0.0
  0
LINE
  5
8C
330
88
100
AcDbEntity
  8
FORMAT
 62
     0
100
AcDbLine
 10
0.0
 20
0.0
 30
0.0
 11
-2.5
 21
0.0
 31
0.0
  0
LINE
  5
8D
330
88
100
AcDbEntity
  8
FORMAT
 62
     0
100
AcDbLine
 10
0.0
 20
0.0
 30
0.0
 11
0.0
 21
-2.5
 31
0.0
  0
LINE
  5
8E
330
88
100
AcDbEntity
  8
FORMAT
 62
     0
100
AcDbLine
 10
0.0
 20
0.0
 30
0.0
 11
2.5
 21
0.0
 31
0.0
  0
LINE
  5
8F
330
88
100
AcDbEntity
  8
FORMAT
 62
     0
100
AcDbLine
 10
0.0
 20
5.0
 30
0.0
 11
0.0
 21
115.0
 31
0.0
  0
LINE
  5
90
330
88
100
AcDbEntity
  8
FORMAT
 62
     0
100
AcDbLine
 10
-5.0
 20
0.0
 30
0.0
 11
-115.0
 21
0.0
 31
0.0
  0
LINE
  5
91
330
88
100
AcDbEntity
  8
FORMAT
 62
     0
100
AcDbLine
 10
0.0
 20
-5.0
 30
0.0
 11
0.0
 21
-115.0
 31
0.0
  0
LINE
  5
92
330
88
100
AcDbEntity
  8
FORMAT
 62
     0
100
AcDbLine
 10
5.0
 20
0.0
 30
0.0
 11
115.0
 21
0.0
 31
0.0
  0
ENDBLK
  5
8A
330
88
100
AcDbEntity
  8
0
100
AcDbBlockEnd
  0
BLOCK
  5
B3
330
B2
100
AcDbEntity
  8
0
100
AcDbBlockBegin
  2
SW_CENTERMARKSYMBOL_1
 70
     0
 10
0.0
 20
0.0
 30
0.0
  3
SW_CENTERMARKSYMBOL_1
  1

  0
LINE
  5
B5
330
B2
100
AcDbEntity
  8
FORMAT
 62
     0
100
AcDbLine
 10
0.0
 20
0.0
 30
0.0
 11
0.0
 21
2.5
 31
0.0
  0
LINE
  5
B6
330
B2
100
AcDbEntity
  8
FORMAT
 62
     0
100
AcDbLine
 10
0.0
 20
0.0
 30
0.0
 11
-2.5
 21
0.0
 31
0.0
  0
LINE
  5
B7
330
B2
100
AcDbEntity
  8
FORMAT
 62
     0
100
AcDbLine
 10
0.0
 20
0.0
 30
0.0
 11
0.0
 21
-2.5
 31
0.0
  0
LINE
  5
B8
330
B2
100
AcDbEntity
  8
FORMAT
 62
     0
100
AcDbLine
 10
0.0
 20
0.0
 30
0.0
 11
2.5
 21
0.0
 31
0.0
  0
LINE
  5
B9
330
B2
100
AcDbEntity
  8
FORMAT
 62
     0
100
AcDbLine
 10
0.0
 20
5.0
 30
0.0
 11
0.0
 21
47.5
 31
0.0
  0
LINE
  5
BA
330
B2
100
AcDbEntity
  8
FORMAT
 62
     0
100
AcDbLine
 10
-5.0
 20
0.0
 30
0.0
 11
-47.5
 21
0.0
 31
0.0
  0
LINE
  5
BB
330
B2
100
AcDbEntity
  8
FORMAT
 62
     0
100
AcDbLine
 10
0.0
 20
-5.0
 30
0.0
 11
0.0
 21
-47.5
 31
0.0
  0
LINE
  5
BC
330
B2
100
AcDbEntity
  8
FORMAT
 62
     0
100
AcDbLine
 10
5.0
 20
0.0
 30
0.0
 11
47.5
 21
0.0
 31
0.0
  0
ENDBLK
  5
B4
330
B2
100
AcDbEntity
  8
0
100
AcDbBlockEnd
  0
ENDSEC
  0
SECTION
  2
ENTITIES
  0
LINE
  5
83
330
1F
100
AcDbEntity
  8
0
  6
Continuous
 62
     7
370
    25
100
AcDbLine
 10
184.3582891048
 20
61.987995074
 30
0.0
 11
303.2234106008
 21
61.987995074
 31
0.0
  0
LINE
  5
84
330
1F
100
AcDbEntity
  8
0
  6
Continuous
 62
     7
370
    25
100
AcDbLine
 10
303.2234106008
 20
151.987995074
 30
0.0
 11
184.389667565
 21
151.987995074
 31
0.0
  0
CIRCLE
  5
85
330
1F
100
AcDbEntity
  8
0
  6
Continuous
 62
     7
370
    25
100
AcDbCircle
 10
81.2234106008
 20
106.987995074
 30
0.0
 40
92.00000000000001
  0
CIRCLE
  5
86
330
1F
100
AcDbEntity
  8
0
  6
Continuous
 62
     7
370
    25
100
AcDbCircle
 10
81.2234106008
 20
106.987995074
 30
0.0
 40
112.5
  0
LINE
  5
87
330
1F
100
AcDbEntity
  8
0
  6
Continuous
 62
     7
370
    25
100
AcDbLine
 10
303.2234106008
 20
151.987995074
 30
0.0
 11
303.2234106008
 21
61.987995074
 31
0.0
  0
INSERT
  5
93
330
1F
100
AcDbEntity
  8
FORMAT
100
AcDbBlockReference
  2
SW_CENTERMARKSYMBOL_0
 10
81.2234106008
 20
106.987995074
 30
0.0
  0
LINE
  5
94
330
1F
100
AcDbEntity
  8
0
  6
Continuous
 62
     7
370
    25
100
AcDbLine
 10
-31.2765893992
 20
-109.7445467517
 30
0.0
 11
-31.2765893992
 21
-636.7445467517
 31
0.0
  0
LINE
  5
95
330
1F
100
AcDbEntity
  8
0
  6
Continuous
 62
     7
370
    25
100
AcDbLine
 10
193.7234106008
 20
-328.3149627425
 30
0.0
 11
193.7234106008
 21
-109.7445467517
 31
0.0
  0
LINE
  5
96
330
1F
100
AcDbEntity
  8
0
  6
Continuous
 62
     7
370
    25
100
AcDbLine
 10
193.7234106008
 20
-636.7445467517
 30
0.0
 11
193.7234106008
 21
-418.2445467517
 31
0.0
  0
LINE
  5
97
330
1F
100
AcDbEntity
  8
0
  6
Continuous
 62
     7
370
    25
100
AcDbLine
 10
193.7234106008
 20
-418.2445467517
 30
0.0
 11
303.2234106008
 21
-418.2445467517
 31
0.0
  0
LINE
  5
98
330
1F
100
AcDbEntity
  8
0
  6
Continuous
 62
     7
370
    25
100
AcDbLine
 10
303.2234106008
 20
-328.2445467517
 30
0.0
 11
193.7234106008
 21
-328.2445467517
 31
0.0
  0
LWPOLYLINE
  5
99
330
1F
100
AcDbEntity
  8
0
  6
Continuous
 62
     7
370
    25
100
AcDbPolyline
 90
       25
 70
   128
 43
0.0
 10
193.6953536734
 20
-328.3149627425
 10
193.5340390223
 20
-328.720089917
 10
192.935356936
 20
-330.2525829213
 10
191.9532366829
 20
-332.8732155356
 10
190.6873220796
 20
-336.4872628988
 10
189.2216173381
 20
-341.1141459064
 10
187.6714450335
 20
-346.7882802998
 10
186.2212983123
 20
-353.4125921361
 10
185.1139096848
 20
-360.5171825346
 10
184.7131686428
 20
-364.366890987
 10
184.4500157781
 20
-368.2966162329
 10
184.3548798951
 20
-375.4468089507
 10
184.7687737972
 20
-382.752030092
 10
185.5756294391
 20
-389.3111449131
 10
186.7300148874
 20
-395.6140247985
 10
188.137395979
 20
-401.5173299441
 10
189.6597657885
 20
-406.8182436944
 10
191.1585898714
 20
-411.3823710374
 10
191.8465849573
 20
-413.3225739144
 10
192.4511099768
 20
-414.9620623594
 10
193.30646744
 20
-417.191806398
 10
193.5723046628
 20
-417.8656965467
 10
193.7070207787
 20
-418.2035565122
 10
193.7234106008
 20
-418.2445467517
 10
193.7234106008
 20
-418.2445467517
  0
LINE
  5
9A
330
1F
100
AcDbEntity
  8
0
  6
Continuous
 62
     7
370
    25
100
AcDbLine
 10
193.7234106008
 20
-636.7445467517
 30
0.0
 11
-31.2765893992
 21
-636.7445467517
 31
0.0
  0
LINE
  5
9B
330
1F
100
AcDbEntity
  8
0
  6
Continuous
 62
     7
370
    25
100
AcDbLine
 10
193.7234106008
 20
-109.7445467517
 30
0.0
 11
-31.2765893992
 21
-109.7445467517
 31
0.0
  0
LINE
  5
9C
330
1F
100
AcDbEntity
  8
0
  6
Continuous
 62
     7
370
    25
100
AcDbLine
 10
303.2234106008
 20
-328.2445467517
 30
0.0
 11
303.2234106008
 21
-418.2445467517
 31
0.0
  0
LINE
  5
9D
330
1F
100
AcDbEntity
  8
0
  6
Continuous
 62
     7
370
    25
100
AcDbLine
 10
193.7234106008
 20
616.7171624017
 30
0.0
 11
193.7234106008
 21
835.2171624017
 31
0.0
  0
LINE
  5
9E
330
1F
100
AcDbEntity
  8
0
  6
Continuous
 62
     7
370
    25
100
AcDbLine
 10
193.7234106008
 20
308.2171624017
 30
0.0
 11
193.7234106008
 21
526.7875783925
 31
0.0
  0
LINE
  5
9F
330
1F
100
AcDbEntity
  8
0
  6
Continuous
 62
     7
370
    25
100
AcDbLine
 10
-31.2765893992
 20
835.2171624017
 30
0.0
 11
-31.2765893992
 21
308.2171624017
 31
0.0
  0
LINE
  5
A0
330
1F
100
AcDbEntity
  8
0
  6
Continuous
 62
     7
370
    25
100
AcDbLine
 10
193.6954442501
 20
526.7171624017
 30
0.0
 11
303.2234106008
 21
526.7171624017
 31
0.0
  0
LINE
  5
A1
330
1F
100
AcDbEntity
  8
0
  6
Continuous
 62
     7
370
    25
100
AcDbLine
 10
303.2234106008
 20
616.7171624017
 30
0.0
 11
193.7234106008
 21
616.7171624017
 31
0.0
  0
SPLINE
  5
A2
330
1F
100
AcDbEntity
  8
0
  6
Continuous
 62
     7
370
    25
100
AcDbSpline
210
0.0
220
0.0
230
1.0
 70
     8
 71
     3
 72
    30
 73
    26
 74
     0
 42
0.000000001
 43
0.00000001
 40
0.0
 40
0.0
 40
0.0
 40
0.0
 40
0.0501235508594168
 40
0.1017676297562977
 40
0.1518741380382924
 40
0.2033241602532765
 40
0.2555925103357956
 40
0.3092484194053794
 40
0.3637074145132256
 40
0.3917087293375983
 40
0.419946782407593
 40
0.4718622145397657
 40
0.4986023933127594
 40
0.5255746233222682
 40
0.5739998455716279
 40
0.6237820347087052
 40
0.6732812546998508
 40
0.724021298680137
 40
0.7772909582285268
 40
0.8320402036392907
 40
0.8862247163045915
 40
0.914109981621703
 40
0.9422365589889569
 40
0.9932131839968685
 40
1.0
 40
1.0
 40
1.0
 40
1.0
 10
193.7234106008056
 20
616.7171624017152
 30
0.0
 10
193.6790455385966
 20
616.6068276502534
 30
0.0
 10
193.5889695733548
 20
616.3828110763379
 30
0.0
 10
192.88226690938
 20
614.5885571824956
 30
0.0
 10
191.8249768756238
 20
611.7740171943062
 30
0.0
 10
190.4787186894753
 20
607.9259436568046
 30
0.0
 10
188.9498921225346
 20
603.0604138460623
 30
0.0
 10
187.3866164012342
 20
597.2458577196527
 30
0.0
 10
186.2004574552199
 20
591.6772736886905
 30
0.0
 10
185.4135870505773
 20
586.8471883999229
 30
0.0
 10
184.7890703647031
 20
581.9586089573298
 30
0.0
 10
184.410403785936
 20
576.9299361327816
 30
0.0
 10
184.3077762879324
 20
571.9042487058923
 30
0.0
 10
184.389237631406
 20
567.0417711978793
 30
0.0
 10
184.7977923227083
 20
561.1442841331128
 30
0.0
 10
185.6961374780638
 20
554.4832013272146
 30
0.0
 10
186.9280367754308
 20
548.1855853959818
 30
0.0
 10
188.385077487528
 20
542.3590216174622
 30
0.0
 10
189.9486596388739
 20
537.1183897149475
 30
0.0
 10
191.4399121611753
 20
532.7203131085513
 30
0.0
 10
192.4682673918857
 20
529.9400171189995
 30
0.0
 10
193.0955821637832
 20
528.307022418258
 30
0.0
 10
193.5268316232199
 20
527.2071416295491
 30
0.0
 10
193.7820234463959
 20
526.5700308963197
 30
0.0
 10
193.7044661360114
 20
526.7647054420481
 30
0.0
 10
193.6953536734215
 20
526.7875783924684
 30
0.0
  0
LINE
  5
A3
330
1F
100
AcDbEntity
  8
0
  6
Continuous
 62
     7
370
    25
100
AcDbLine
 10
-31.2765893992
 20
835.2171624017
 30
0.0
 11
193.7234106008
 21
835.2171624017
 31
0.0
  0
LINE
  5
A4
330
1F
100
AcDbEntity
  8
0
  6
Continuous
 62
     7
370
    25
100
AcDbLine
 10
-31.2765893992
 20
308.2171624017
 30
0.0
 11
193.7234106008
 21
308.2171624017
 31
0.0
  0
LINE
  5
A5
330
1F
100
AcDbEntity
  8
0
  6
Continuous
 62
     7
370
    25
100
AcDbLine
 10
303.2234106008
 20
616.7171624017
 30
0.0
 11
303.2234106008
 21
526.7171624017
 31
0.0
  0
LINE
  5
A6
330
1F
100
AcDbEntity
  8
0
  6
Continuous
 62
     7
370
    25
100
AcDbLine
 10
383.4842722994
 20
-5.512004926
 30
0.0
 11
910.4842722994
 21
-5.512004926
 31
0.0
  0
LINE
  5
A7
330
1F
100
AcDbEntity
  8
0
  6
Continuous
 62
     7
370
    25
100
AcDbLine
 10
910.4842722994
 20
219.487995074
 30
0.0
 11
383.4842722994
 21
219.487995074
 31
0.0
  0
LINE
  5
A8
330
1F
100
AcDbEntity
  8
0
  6
Continuous
 62
     7
370
    25
100
AcDbLine
 10
910.4842722994
 20
219.487995074
 30
0.0
 11
910.4842722994
 21
-5.512004926
 31
0.0
  0
LINE
  5
A9
330
1F
100
AcDbEntity
  8
0
  6
Continuous
 62
     7
370
    25
100
AcDbLine
 10
383.4842722994
 20
219.487995074
 30
0.0
 11
383.4842722994
 21
-5.512004926
 31
0.0
  0
LINE
  5
AA
330
1F
100
AcDbEntity
  8
0
  6
Continuous
 62
     7
370
    25
100
AcDbLine
 10
-135.2688657373
 20
219.487995074
 30
0.0
 11
-662.2688657373
 21
219.487995074
 31
0.0
  0
LINE
  5
AB
330
1F
100
AcDbEntity
  8
0
  6
Continuous
 62
     7
370
    25
100
AcDbLine
 10
-662.2688657373
 20
-5.512004926
 30
0.0
 11
-135.2688657373
 21
-5.512004926
 31
0.0
  0
CIRCLE
  5
AC
330
1F
100
AcDbEntity
  8
0
  6
Continuous
 62
     7
370
    25
100
AcDbCircle
 10
-398.7688657373
 20
106.987995074
 30
0.0
 40
36.80000000000001
  0
CIRCLE
  5
AD
330
1F
100
AcDbEntity
  8
0
  6
Continuous
 62
     7
370
    25
100
AcDbCircle
 10
-398.7688657373
 20
106.987995074
 30
0.0
 40
45.00000000000006
  0
LINE
  5
AE
330
1F
100
AcDbEntity
  8
0
  6
Continuous
 62
     7
370
    25
100
AcDbLine
 10
-662.2688657373
 20
106.987995074
 30
0.0
 11
-662.2688657373
 21
219.487995074
 31
0.0
  0
LINE
  5
AF
330
1F
100
AcDbEntity
  8
0
  6
Continuous
 62
     7
370
    25
100
AcDbLine
 10
-662.2688657373
 20
-5.512004926
 30
0.0
 11
-662.2688657373
 21
106.987995074
 31
0.0
  0
LINE
  5
B0
330
1F
100
AcDbEntity
  8
0
  6
Continuous
 62
     7
370
    25
100
AcDbLine
 10
-135.2688657373
 20
106.987995074
 30
0.0
 11
-135.2688657373
 21
219.487995074
 31
0.0
  0
LINE
  5
B1
330
1F
100
AcDbEntity
  8
0
  6
Continuous
 62
     7
370
    25
100
AcDbLine
 10
-135.2688657373
 20
-5.512004926
 30
0.0
 11
-135.2688657373
 21
106.987995074
 31
0.0
  0
INSERT
  5
BD
330
1F
100
AcDbEntity
  8
FORMAT
100
AcDbBlockReference
  2
SW_CENTERMARKSYMBOL_1
 10
-398.7688657373
 20
106.987995074
 30
0.0
  0
LINE
  5
BE
330
1F
100
AcDbEntity
  8
0
  6
Continuous
 62
     7
370
    25
100
AcDbLine
 10
870.5390622022
 20
-347.2717250327
 30
0.0
 11
785.4837972989
 21
-298.1703657558
 31
0.0
  0
LINE
  5
BF
330
1F
100
AcDbEntity
  8
0
  6
Continuous
 62
     7
370
    25
100
AcDbLine
 10
695.4764826417
 20
-246.2102490064
 30
0.0
 11
497.8937885169
 21
-132.1481875674
 31
0.0
  0
LINE
  5
C0
330
1F
100
AcDbEntity
  8
0
  6
Continuous
 62
     7
370
    25
100
AcDbLine
 10
385.4029310954
 20
-327.009181603
 30
0.0
 11
758.0482047807
 21
-542.1327190683
 31
0.0
  0
LINE
  5
C1
330
1F
100
AcDbEntity
  8
0
  6
Continuous
 62
     7
370
    25
100
AcDbLine
 10
726.7677621608
 20
-332.0664113434
 30
0.0
 11
807.4468735565
 21
-285.4913517127
 31
0.0
  0
LINE
  5
C2
330
1F
100
AcDbEntity
  8
0
  6
Continuous
 62
     7
370
    25
100
AcDbLine
 10
762.4505305879
 20
-207.5469540984
 30
0.0
 11
681.7732476208
 21
-254.1209581997
 31
0.0
  0
SPLINE
  5
C3
330
1F
100
AcDbEntity
  8
0
  6
Continuous
 62
     7
370
    25
100
AcDbSpline
210
0.0
220
0.0
230
1.0
 70
     8
 71
     3
 72
    24
 73
    20
 74
     0
 42
0.000000001
 43
0.00000001
 40
0.0
 40
0.0
 40
0.0
 40
0.0
 40
0.0668265625666191
 40
0.1356803490686472
 40
0.2024841898438755
 40
0.271079252836258
 40
0.3407653406563351
 40
0.4123013731805298
 40
0.4849081095647295
 40
0.5222404929448864
 40
0.5598885044661409
 40
0.6291040690873357
 40
0.6647550594736308
 40
0.7007154291079992
 40
0.765277717472717
 40
0.8316491640289053
 40
0.8976433457063929
 40
0.9652918395888763
 40
0.9999999999999999
 40
0.9999999999999999
 40
0.9999999999999999
 40
0.9999999999999999
 10
675.7007043788929
 20
-272.8483145118212
 30
0.0
 10
675.7473519934675
 20
-274.8613326998477
 30
0.0
 10
675.8420623060383
 20
-278.9484351923737
 30
0.0
 10
676.6110771563152
 20
-285.7032702308226
 30
0.0
 10
677.8536405125252
 20
-292.7279300255285
 30
0.0
 10
679.6226911235015
 20
-299.846259022444
 30
0.0
 10
681.9820965726332
 20
-306.9683651237952
 30
0.0
 10
684.9882059354511
 20
-313.8536266970639
 30
0.0
 10
688.0870479223577
 20
-319.1906876006016
 30
0.0
 10
690.9460336507084
 20
-323.0893846578339
 30
0.0
 10
693.9611770934766
 20
-326.5677647730378
 30
0.0
 10
697.2492521445802
 20
-329.4877444231047
 30
0.0
 10
700.7303242118104
 20
-331.7730157958379
 30
0.0
 10
704.2264405218399
 20
-333.5727090826989
 30
0.0
 10
708.6839406191908
 20
-335.0426294636701
 30
0.0
 10
714.0357351002838
 20
-335.6419693072291
 30
0.0
 10
719.3356694258913
 20
-335.0607496475249
 30
0.0
 10
723.6495066776524
 20
-333.830960812405
 30
0.0
 10
725.9204741223743
 20
-332.4135895125758
 30
0.0
 10
726.6905374162932
 20
-331.9329724899104
 30
0.0
  0
SPLINE
  5
C4
330
1F
100
AcDbEntity
  8
0
  6
Continuous
 62
     7
370
    25
100
AcDbSpline
210
0.0
220
0.0
230
1.0
 70
     8
 71
     3
 72
    15
 73
    11
 74
     0
 42
0.000000001
 43
0.00000001
 40
0.0
 40
0.0
 40
0.0
 40
0.0
 40
0.0730986310167566
 40
0.290195527370072
 40
0.4016703547341537
 40
0.5140275302756037
 40
0.7264582894024324
 40
0.8358411060960645
 40
0.9461758781850202
 40
1.0
 40
1.0
 40
1.0
 40
1.0
 10
681.8392825852283
 20
-254.2391886499732
 30
0.0
 10
681.5208864837269
 20
-254.3806256146181
 30
0.0
 10
680.2568802594989
 20
-254.9421186819139
 30
0.0
 10
679.0045949611423
 20
-256.6249165093458
 30
0.0
 10
677.8269377153081
 20
-258.8586734071355
 30
0.0
 10
676.8800286481716
 20
-261.4854959712799
 30
0.0
 10
676.2155782160415
 20
-264.6399215069372
 30
0.0
 10
675.838998867732
 20
-268.2672687604203
 30
0.0
 10
675.7149378885485
 20
-270.7501354329962
 30
0.0
 10
675.7042189011369
 20
-272.3302344863849
 30
0.0
 10
675.7007043788929
 20
-272.8483145118212
 30
0.0
  0
LWPOLYLINE
  5
C5
330
1F
100
AcDbEntity
  8
0
  6
Continuous
 62
     7
370
    25
100
AcDbPolyline
 90
      113
 70
   128
 43
0.0
 10
521.1978726896
 20
-183.6557282952
 10
521.0727265906
 20
-178.577295143
 10
520.6976820495
 20
-173.6593312307
 10
520.0739190952
 20
-168.9173102922
 10
519.2034003167
 20
-164.3661524798
 10
518.0888646882
 20
-160.0201774197
 10
516.733818951
 20
-155.8930591573
 10
515.1425265804
 20
-151.9977831336
 10
513.319994371
 20
-148.346605328
 10
511.2719566832
 20
-144.9510136967
 10
509.0048574014
 20
-141.8216920273
 10
506.5258296587
 20
-138.9684863234
 10
503.8426733935
 20
-136.4003738258
 10
500.963830808
 20
-134.1254347665
 10
497.8983598061
 20
-132.1508269454
 10
494.6559054938
 20
-130.4827632093
 10
491.2466698318
 20
-129.1264919038
 10
487.6813795369
 20
-128.0862803602
 10
483.9712523313
 20
-127.3654014689
 10
480.1279616479
 20
-126.9661233815
 10
476.163599901
 20
-126.8897023747
 10
472.0906404394
 20
-127.1363788971
 10
467.9218983003
 20
-127.7053768133
 10
463.6704898888
 20
-128.5949058452
 10
459.3497917087
 20
-129.8021672054
 10
454.973398275
 20
-131.3233624031
 10
450.5550793404
 20
-133.1537051953
 10
446.108736571
 20
-135.2874366465
 10
441.6483598061
 20
-137.7178432481
 10
437.1879830413
 20
-140.4372780417
 10
432.7416402719
 20
-143.4371846796
 10
428.3233213373
 20
-146.7081243454
 10
423.9469279035
 20
-150.2398054528
 10
419.6262297234
 20
-154.0211160266
 10
415.374821312
 20
-158.0401586647
 10
411.2060791729
 20
-162.284287972
 10
407.1331197113
 20
-166.7401503476
 10
403.1687579644
 20
-171.3937259999
 10
399.325467281
 20
-176.2303730583
 10
395.6153400754
 20
-181.2348736417
 10
392.0500497805
 20
-186.3914817399
 10
388.6408141185
 20
-191.6839727559
 10
385.3983598061
 20
-197.095694555
 10
382.3328888043
 20
-202.6096198583
 10
379.4540462188
 20
-208.2083998169
 10
376.7708899536
 20
-213.8744185976
 10
374.2918622109
 20
-219.589848809
 10
372.0247629291
 20
-225.3367075934
 10
369.9767252413
 20
-231.0969132067
 10
368.1541930318
 20
-236.8523419111
 10
366.5629006613
 20
-242.5848849986
 10
365.2078549241
 20
-248.2765057677
 10
364.0933192956
 20
-253.9092962739
 10
363.2228005171
 20
-259.4655336743
 10
362.5990375628
 20
-264.9277359903
 10
362.2239930217
 20
-270.2787171127
 10
362.0988469227
 20
-275.5016408752
 10
362.2239930217
 20
-280.5800740274
 10
362.5990375628
 20
-285.4980379397
 10
363.2228005171
 20
-290.2400588782
 10
364.0933192956
 20
-294.7912166906
 10
365.2078549241
 20
-299.1371917507
 10
366.5629006613
 20
-303.2643100131
 10
368.1541930318
 20
-307.1595860368
 10
369.9767252413
 20
-310.8107638424
 10
372.0247629291
 20
-314.2063554737
 10
374.2918622109
 20
-317.3356771431
 10
376.7708899536
 20
-320.188882847
 10
379.4540462188
 20
-322.7569953446
 10
382.3328888043
 20
-325.0319344039
 10
385.3983598061
 20
-327.006542225
 10
388.6408141185
 20
-328.6746059611
 10
392.0500497805
 20
-330.0308772666
 10
395.6153400754
 20
-331.0710888102
 10
399.325467281
 20
-331.7919677016
 10
403.1687579644
 20
-332.1912457889
 10
407.1331197113
 20
-332.2676667958
 10
411.2060791729
 20
-332.0209902733
 10
415.374821312
 20
-331.4519923571
 10
419.6262297234
 20
-330.5624633252
 10
423.9469279035
 20
-329.355201965
 10
428.3233213373
 20
-327.8340067673
 10
432.7416402719
 20
-326.0036639751
 10
437.1879830413
 20
-323.869932524
 10
441.6483598061
 20
-321.4395259224
 10
446.108736571
 20
-318.7200911287
 10
450.5550793404
 20
-315.7201844909
 10
454.973398275
 20
-312.4492448251
 10
459.3497917087
 20
-308.9175637176
 10
463.6704898888
 20
-305.1362531438
 10
467.9218983003
 20
-301.1172105058
 10
472.0906404394
 20
-296.8730811985
 10
476.163599901
 20
-292.4172188229
 10
480.1279616479
 20
-287.7636431705
 10
483.9712523313
 20
-282.9269961121
 10
487.6813795369
 20
-277.9224955287
 10
491.2466698318
 20
-272.7658874306
 10
494.6559054938
 20
-267.4733964145
 10
497.8983598061
 20
-262.0616746154
 10
500.963830808
 20
-256.5477493121
 10
503.8426733935
 20
-250.9489693535
 10
506.5258296587
 20
-245.2829505729
 10
509.0048574014
 20
-239.5675203614
 10
511.2719566832
 20
-233.820661577
 10
513.319994371
 20
-228.0604559637
 10
515.1425265804
 20
-222.3050272593
 10
516.733818951
 20
-216.5724841718
 10
518.0888646882
 20
-210.8808634027
 10
519.2034003167
 20
-205.2480728965
 10
520.0739190952
 20
-199.6918354962
 10
520.6976820495
 20
-194.2296331801
 10
521.0727265906
 20
-188.8786520577
 10
521.1978726896
 20
-183.6557282952
  0
LWPOLYLINE
  5
C6
330
1F
100
AcDbEntity
  8
0
  6
Continuous
 62
     7
370
    25
100
AcDbPolyline
 90
       16
 70
   128
 43
0.0
 10
893.8431463749
 20
-398.7792657605
 10
893.7180002759
 20
-393.7008326083
 10
893.3429557348
 20
-388.782868696
 10
892.7191927805
 20
-384.0408477575
 10
891.848674002
 20
-379.4896899451
 10
890.7341383735
 20
-375.143714885
 10
889.3790926363
 20
-371.0165966226
 10
887.7878002658
 20
-367.1213205989
 10
885.9652680563
 20
-363.4701427933
 10
883.9172303685
 20
-360.074551162
 10
881.6501310867
 20
-356.9452294926
 10
879.171103344
 20
-354.0920237887
 10
876.4879470788
 20
-351.5239112911
 10
873.6091044933
 20
-349.2489722318
 10
870.5436334915
 20
-347.2743644107
 10
870.5390622022
 20
-347.2717250327
  0
LWPOLYLINE
  5
C7
330
1F
100
AcDbEntity
  8
0
  6
Continuous
 62
     7
370
    25
100
AcDbPolyline
 90
       43
 70
   128
 43
0.0
 10
758.0482047807
 20
-542.1327190683
 10
761.2860878038
 20
-543.7981434264
 10
764.6953234658
 20
-545.1544147319
 10
768.2606137607
 20
-546.1946262755
 10
771.9707409663
 20
-546.9155051668
 10
775.8140316497
 20
-547.3147832542
 10
779.7783933966
 20
-547.391204261
 10
783.8513528582
 20
-547.1445277386
 10
788.0200949973
 20
-546.5755298224
 10
792.2715034088
 20
-545.6860007905
 10
796.5922015889
 20
-544.4787394303
 10
800.9685950226
 20
-542.9575442326
 10
805.3869139572
 20
-541.1272014404
 10
809.8332567266
 20
-538.9934699892
 10
814.2936334915
 20
-536.5630633876
 10
818.7540102563
 20
-533.843628594
 10
823.2003530257
 20
-530.8437219562
 10
827.6186719603
 20
-527.5727822904
 10
831.9950653941
 20
-524.0411011829
 10
836.3157635742
 20
-520.2597906091
 10
840.5671719856
 20
-516.2407479711
 10
844.7359141247
 20
-511.9966186637
 10
848.8088735863
 20
-507.5407562881
 10
852.7732353332
 20
-502.8871806358
 10
856.6165260166
 20
-498.0505335774
 10
860.3266532222
 20
-493.046032994
 10
863.8919435171
 20
-487.8894248958
 10
867.3011791791
 20
-482.5969338798
 10
870.5436334915
 20
-477.1852120807
 10
873.6091044933
 20
-471.6712867774
 10
876.4879470788
 20
-466.0725068188
 10
879.171103344
 20
-460.4064880382
 10
881.6501310867
 20
-454.6910578267
 10
883.9172303685
 20
-448.9441990423
 10
885.9652680563
 20
-443.183993429
 10
887.7878002658
 20
-437.4285647246
 10
889.3790926363
 20
-431.6960216371
 10
890.7341383735
 20
-426.004400868
 10
891.848674002
 20
-420.3716103618
 10
892.7191927805
 20
-414.8153729615
 10
893.3429557348
 20
-409.3531706454
 10
893.7180002759
 20
-404.002189523
 10
893.8431463749
 20
-398.7792657605
  0
LWPOLYLINE
  5
C8
330
1F
100
AcDbEntity
  8
0
  6
Continuous
 62
     7
370
    25
100
AcDbPolyline
 90
      102
 70
   128
 43
0.0
 10
506.7021836753
 20
-192.0239114414
 10
506.5763433719
 20
-187.4262652497
 10
506.1993093135
 20
-182.9916985796
 10
505.5725401716
 20
-178.737367908
 10
504.6984607942
 20
-174.6797324138
 10
503.5804528247
 20
-170.8344903005
 10
502.2228416187
 20
-167.2165180629
 10
500.6308795101
 20
-163.8398129326
 10
498.8107254912
 20
-160.7174387258
 10
496.7694213842
 20
-157.8614753018
 10
494.5148645982
 20
-155.2829718281
 10
492.0557775754
 20
-152.991904034
 10
489.4016740457
 20
-150.9971356154
 10
486.5628222202
 20
-149.3063839441
 10
483.5502050649
 20
-147.9261902096
 10
480.3754778106
 20
-146.8618941135
 10
477.05092286
 20
-146.1176132105
 10
473.5894022706
 20
-145.6962269789
 10
470.004307993
 20
-145.5993656803
 10
466.3095100604
 20
-145.827404052
 10
462.5193029284
 20
-146.379459858
 10
458.648350172
 20
-147.2533973016
 10
454.7116277554
 20
-148.4458352885
 10
450.7243660928
 20
-149.952160508
 10
446.7019911252
 20
-151.7665452803
 10
442.6600646397
 20
-153.8819701032
 10
438.6142240647
 20
-156.290250809
 10
434.5801219715
 20
-158.9820702276
 10
430.5733655173
 20
-161.9470142326
 10
426.6094560646
 20
-165.1736120315
 10
422.7037292088
 20
-168.6493805444
 10
418.8712954485
 20
-172.360872698
 10
415.1269817254
 20
-176.2937294502
 10
411.4852740618
 20
-180.4327353424
 10
407.9602615173
 20
-184.7618773647
 10
404.5655816806
 20
-189.2644069077
 10
401.3143679084
 20
-193.9229045594
 10
398.2191985154
 20
-198.7193474972
 10
395.2920481105
 20
-203.6351792152
 10
392.5442412701
 20
-208.6513813155
 10
389.9864087249
 20
-213.7485470867
 10
387.6284462323
 20
-218.9069565847
 10
385.479476291
 20
-224.106652925
 10
383.5478128482
 20
-229.3275194929
 10
381.8409291346
 20
-234.5493577696
 10
380.3654287517
 20
-239.7519654775
 10
379.1270201237
 20
-244.9152147379
 10
378.1304944131
 20
-250.0191299426
 10
377.3797069843
 20
-255.0439650351
 10
376.8775624879
 20
-259.9702799046
 10
376.6260036236
 20
-264.7790155958
 10
376.6260036236
 20
-269.4515680447
 10
376.8775624879
 20
-273.9698600535
 10
377.3797069843
 20
-278.3164112281
 10
378.1304944131
 20
-282.4744056065
 10
379.1270201237
 20
-286.4277567161
 10
380.3654287517
 20
-290.1611698096
 10
381.8409291346
 20
-293.660201037
 10
383.5478128482
 20
-296.9113133261
 10
385.479476291
 20
-299.9019287551
 10
387.6284462323
 20
-302.620477214
 10
389.9864087249
 20
-305.0564411668
 10
392.5442412701
 20
-307.2003963422
 10
395.2920481105
 20
-309.0440481942
 10
398.2191985154
 20
-310.5802639919
 10
401.3143679084
 20
-311.8031004149
 10
404.5655816806
 20
-312.7078265465
 10
407.9602615173
 20
-313.2909421771
 10
411.4852740618
 20
-313.5501913456
 10
415.1269817254
 20
-313.4845710674
 10
418.8712954485
 20
-313.0943352146
 10
422.7037292088
 20
-312.3809935338
 10
426.6094560646
 20
-311.3473058054
 10
430.5733655173
 20
-309.9972711666
 10
434.5801219715
 20
-308.3361126389
 10
438.6142240647
 20
-306.3702569221
 10
442.6600646397
 20
-304.10730953
 10
446.7019911252
 20
-301.5560253664
 10
450.7243660929
 20
-298.7262748542
 10
454.7116277554
 20
-295.6290057484
 10
458.648350172
 20
-292.2762007813
 10
462.5193029284
 20
-288.6808313042
 10
466.3095100604
 20
-284.8568071031
 10
470.004307993
 20
-280.8189225846
 10
473.5894022706
 20
-276.5827995396
 10
477.05092286
 20
-272.1648267053
 10
480.3754778106
 20
-267.5820963601
 10
483.5502050649
 20
-262.8523381976
 10
486.5628222202
 20
-257.9938507333
 10
489.4016740457
 20
-253.0254305113
 10
492.0557775754
 20
-247.9662993842
 10
494.5148645982
 20
-242.8360301475
 10
496.7694213842
 20
-237.6544708164
 10
498.8107254912
 20
-232.4416678372
 10
500.6308795101
 20
-227.217788532
 10
502.2228416187
 20
-222.0030430749
 10
503.5804528247
 20
-216.8176063032
 10
504.6984607942
 20
-211.6815396642
 10
505.5725401716
 20
-206.6147136022
 10
506.1993093135
 20
-201.6367306827
 10
506.5763433719
 20
-196.7668497547
 10
506.7021836753
 20
-192.0239114414
  0
LWPOLYLINE
  5
C9
330
1F
100
AcDbEntity
  8
0
  6
Continuous
 62
     7
370
    25
100
AcDbPolyline
 90
       65
 70
   128
 43
0.0
 10
810.9702316199
 20
-261.5410621631
 10
810.8449308427
 20
-258.5234397355
 10
810.4702352261
 20
-255.3902094635
 10
809.8497532938
 20
-252.1715460674
 10
808.9894606259
 20
-248.8984470353
 10
807.8976423112
 20
-245.6024341
 10
806.5848131567
 20
-242.315249668
 10
805.063616425
 20
-239.0685511222
 10
803.3487020722
 20
-235.8936059446
 10
801.4565856609
 20
-232.8209905926
 10
799.4054893065
 20
-229.880296032
 10
797.2151661882
 20
-227.0998427587
 10
794.9067103149
 20
-224.5064080578
 10
792.5023533786
 20
-222.1249681232
 10
790.025250651
 20
-219.9784575233
 10
787.4992579855
 20
-218.0875483285
 10
784.9487020722
 20
-216.4704510281
 10
782.398146159
 20
-215.1427391531
 10
779.8721534934
 20
-214.1171992946
 10
777.3950507658
 20
-213.4037079621
 10
774.9906938295
 20
-213.0091364671
 10
772.6822379562
 20
-212.9372847489
 10
770.4919148379
 20
-213.1888447787
 10
768.4408184835
 20
-213.761393896
 10
766.5487020722
 20
-214.6494181398
 10
764.8337877194
 20
-215.8443653511
 10
763.3125909877
 20
-217.3347275352
 10
761.9997618333
 20
-219.1061516893
 10
760.9079435185
 20
-221.1415780307
 10
760.0476508506
 20
-223.4214042909
 10
759.4271689183
 20
-225.9236744968
 10
759.0524733017
 20
-228.6242904183
 10
758.9271725245
 20
-231.497243648
 10
759.0524733017
 20
-234.5148660756
 10
759.4271689183
 20
-237.6480963476
 10
760.0476508506
 20
-240.8667597437
 10
760.9079435185
 20
-244.1398587758
 10
761.9997618333
 20
-247.4358717111
 10
763.3125909877
 20
-250.7230561431
 10
764.8337877194
 20
-253.9697546889
 10
766.5487020722
 20
-257.1446998665
 10
768.4408184835
 20
-260.2173152184
 10
770.4919148379
 20
-263.1580097791
 10
772.6822379562
 20
-265.9384630524
 10
774.9906938295
 20
-268.5318977532
 10
777.3950507658
 20
-270.9133376878
 10
779.8721534934
 20
-273.0598482878
 10
782.398146159
 20
-274.9507574825
 10
784.9487020722
 20
-276.5678547829
 10
787.4992579855
 20
-277.895566658
 10
790.025250651
 20
-278.9211065165
 10
792.5023533786
 20
-279.634597849
 10
794.9067103149
 20
-280.0291693439
 10
797.2151661882
 20
-280.1010210622
 10
799.4054893065
 20
-279.8494610323
 10
801.4565856609
 20
-279.276911915
 10
803.3487020722
 20
-278.3888876713
 10
805.063616425
 20
-277.1939404599
 10
806.5848131567
 20
-275.7035782759
 10
807.8976423112
 20
-273.9321541217
 10
808.9894606259
 20
-271.8967277804
 10
809.8497532938
 20
-269.6169015202
 10
810.4702352261
 20
-267.1146313143
 10
810.8449308427
 20
-264.4140153927
 10
810.9702316199
 20
-261.5410621631
  0
LWPOLYLINE
  5
CA
330
1F
100
AcDbEntity
  8
0
  6
Continuous
 62
     7
370
    25
100
AcDbPolyline
 90
       72
 70
   128
 43
0.0
 10
816.7685072256
 20
-264.8883354215
 10
816.6439906665
 20
-261.5689852357
 10
816.2714155001
 20
-258.1318497066
 10
815.6536976322
 20
-254.6038290799
 10
814.7956715427
 20
-251.0125349006
 10
813.704052449
 20
-247.3860739147
 10
812.3873837507
 20
-243.7528280966
 10
810.8559701656
 20
-240.1412325208
 10
809.1217970812
 20
-236.5795528196
 10
807.1984367533
 20
-233.0956639656
 10
805.1009420842
 20
-229.7168321128
 10
802.8457288136
 20
-226.4695012016
 10
800.4504470431
 20
-223.3790859994
 10
797.9338431001
 20
-220.4697731952
 10
795.3156128227
 20
-217.7643321062
 10
792.6162474126
 20
-215.2839364772
 10
789.8568730643
 20
-213.0479987671
 10
787.0590856232
 20
-211.0740182199
 10
784.2447815694
 20
-209.37744391
 10
781.435986648
 20
-207.9715538315
 10
778.6546834875
 20
-206.8673509806
 10
775.9226395562
 20
-206.0734772416
 10
773.261236802
 20
-205.5961457529
 10
770.69130431
 20
-205.4390922807
 10
768.2329552864
 20
-205.6035459813
 10
765.9054296455
 20
-206.0882197815
 10
763.7269434311
 20
-206.8893204517
 10
761.7145462516
 20
-208.0005782929
 10
759.8839878435
 20
-209.4132962059
 10
758.2495948081
 20
-211.1164177576
 10
756.8241584872
 20
-213.0966137126
 10
755.6188348524
 20
-215.3383863527
 10
754.6430571955
 20
-217.8241907676
 10
753.9044622997
 20
-220.5345721672
 10
753.4088306714
 20
-223.4483181423
 10
753.1600413002
 20
-226.5426246801
 10
753.1600413002
 20
-229.7932746364
 10
753.4088306714
 20
-233.1748272679
 10
753.9044622997
 20
-236.6608173404
 10
754.6430571955
 20
-240.2239622552
 10
755.6188348524
 20
-243.8363755721
 10
756.8241584872
 20
-247.4697852591
 10
758.2495948081
 20
-251.0957549591
 10
759.8839878435
 20
-254.6859065428
 10
761.7145462516
 20
-258.2121422063
 10
763.7269434311
 20
-261.6468643747
 10
765.9054296455
 20
-264.9631916899
 10
768.2329552864
 20
-268.1351693942
 10
770.69130431
 20
-271.1379724615
 10
773.261236802
 20
-273.9480998863
 10
775.9226395562
 20
-276.5435586114
 10
778.6546834875
 20
-278.9040356533
 10
781.435986648
 20
-281.0110570787
 10
784.2447815694
 20
-282.848132588
 10
787.0590856232
 20
-284.4008845747
 10
789.8568730643
 20
-285.6571606491
 10
792.6162474126
 20
-286.6071287476
 10
795.3156128227
 20
-287.2433540819
 10
797.9338431001
 20
-287.5608573261
 10
800.4504470431
 20
-287.5571535868
 10
802.8457288136
 20
-287.2322718508
 10
805.1009420842
 20
-286.5887547581
 10
807.1984367533
 20
-285.6316387026
 10
809.1217970812
 20
-284.368414415
 10
810.8559701656
 20
-282.8089683382
 10
812.3873837507
 20
-280.9655052521
 10
813.704052449
 20
-278.8524527548
 10
814.7956715427
 20
-276.4863483471
 10
815.6536976322
 20
-273.885710004
 10
816.2714155001
 20
-271.0708912467
 10
816.6439906665
 20
-268.0639218483
 10
816.7685072256
 20
-264.8883354215
  0
ENDSEC
  0
SECTION
  2
OBJECTS
  0
DICTIONARY
  5
C
330
0
100
AcDbDictionary
281
     1
  3
ACAD_GROUP
350
D
  3
ACAD_LAYOUT
350
1A
  3
ACAD_MLINESTYLE
350
17
  3
ACAD_PLOTSETTINGS
350
19
  3
ACAD_PLOTSTYLENAME
350
E
  3
ACAD_SCALELIST
350
47
  0
DICTIONARY
  5
D
102
{ACAD_REACTORS
330
C
102
}
330
C
100
AcDbDictionary
281
     1
  0
DICTIONARY
  5
1A
102
{ACAD_REACTORS
330
C
102
}
330
C
100
AcDbDictionary
281
     1
  3
Layout1
350
1E
  3
Layout2
350
26
  3
Model
350
22
  0
DICTIONARY
  5
17
102
{ACAD_REACTORS
330
C
102
}
330
C
100
AcDbDictionary
281
     1
  3
Standard
350
18
  0
DICTIONARY
  5
19
102
{ACAD_REACTORS
330
C
102
}
330
C
100
AcDbDictionary
281
     1
  0
ACDBDICTIONARYWDFLT
  5
E
102
{ACAD_REACTORS
330
C
102
}
330
C
100
AcDbDictionary
281
     1
  3
Normal
350
F
100
AcDbDictionaryWithDefault
340
F
  0
DICTIONARY
  5
47
102
{ACAD_REACTORS
330
C
102
}
330
C
100
AcDbDictionary
281
     1
  3
A0
350
48
  3
A1
350
49
  3
A2
350
4A
  3
A3
350
4B
  3
A4
350
4C
  3
A5
350
4D
  3
A6
350
4E
  3
A7
350
4F
  3
A8
350
50
  3
A9
350
51
  3
B0
350
52
  3
B1
350
53
  3
B2
350
54
  3
B3
350
55
  3
B4
350
56
  3
B5
350
57
  3
B6
350
58
  3
B7
350
59
  3
B8
350
5A
  3
B9
350
5B
  3
C0
350
5C
  3
C1
350
5D
  3
C2
350
5E
  3
C3
350
5F
  3
C4
350
60
  3
C5
350
61
  3
C6
350
62
  3
C7
350
63
  3
C8
350
64
  3
C9
350
65
  3
D0
350
66
  3
D1
350
67
  3
D2
350
68
  0
LAYOUT
  5
1E
102
{ACAD_REACTORS
330
1A
102
}
330
1A
100
AcDbPlotSettings
  1

  2
none_device
  4

  6

 40
0.0
 41
0.0
 42
0.0
 43
0.0
 44
0.0
 45
0.0
 46
0.0
 47
0.0
 48
0.0
 49
0.0
140
0.0
141
0.0
142
1.0
143
1.0
 70
   688
 72
     1
 73
     0
 74
     5
  7

 75
    16
147
1.0
148
0.0
149
0.0
100
AcDbLayout
  1
Layout1
 70
     1
 71
     1
 10
0.0
 20
0.0
 11
420.0
 21
297.0
 12
0.0
 22
0.0
 32
0.0
 14
1.0000000000E+20
 24
1.0000000000E+20
 34
1.0000000000E+20
 15
-1.0000000000E+20
 25
-1.0000000000E+20
 35
-1.0000000000E+20
146
0.0
 13
0.0
 23
0.0
 33
0.0
 16
1.0
 26
0.0
 36
0.0
 17
0.0
 27
1.0
 37
0.0
 76
     0
330
1B
  0
LAYOUT
  5
26
102
{ACAD_REACTORS
330
1A
102
}
330
1A
100
AcDbPlotSettings
  1

  2
none_device
  4

  6

 40
0.0
 41
0.0
 42
0.0
 43
0.0
 44
0.0
 45
0.0
 46
0.0
 47
0.0
 48
0.0
 49
0.0
140
0.0
141
0.0
142
1.0
143
1.0
 70
   688
 72
     1
 73
     0
 74
     5
  7

 75
    16
147
1.0
148
0.0
149
0.0
100
AcDbLayout
  1
Layout2
 70
     1
 71
     2
 10
0.0
 20
0.0
 11
0.0
 21
0.0
 12
0.0
 22
0.0
 32
0.0
 14
0.0
 24
0.0
 34
0.0
 15
0.0
 25
0.0
 35
0.0
146
0.0
 13
0.0
 23
0.0
 33
0.0
 16
1.0
 26
0.0
 36
0.0
 17
0.0
 27
1.0
 37
0.0
 76
     0
330
23
  0
LAYOUT
  5
22
102
{ACAD_REACTORS
330
1A
102
}
330
1A
100
AcDbPlotSettings
  1

  2
none_device
  4
Letter_(8.50_x_11.00_Inches)
  6

 40
6.35
 41
6.35
 42
6.35000508
 43
6.35000508
 44
215.9
 45
279.4
 46
0.0
 47
0.0
 48
0.0
 49
0.0
140
0.0
141
0.0
142
1.0
143
1.0
 70
  1712
 72
     1
 73
     0
 74
     0
  7

 75
     0
147
1.0
148
0.0
149
0.0
100
AcDbLayout
  1
Model
 70
     1
 71
     0
 10
0.0
 20
0.0
 11
279.4
 21
215.9
 12
0.0
 22
0.0
 32
0.0
 14
0.0
 24
0.0
 34
0.0
 15
279.4
 25
215.9
 35
0.0
146
0.0
 13
0.0
 23
0.0
 33
0.0
 16
1.0
 26
0.0
 36
0.0
 17
0.0
 27
1.0
 37
0.0
 76
     0
330
1F
331
29
  0
MLINESTYLE
  5
18
102
{ACAD_REACTORS
330
17
102
}
330
17
100
AcDbMlineStyle
  2
Standard
 70
     0
  3

 62
   256
 51
90.0
 52
90.0
 71
     2
 49
0.5
 62
   256
  6
BYLAYER
 49
-0.5
 62
   256
  6
BYLAYER
  0
ACDBPLACEHOLDER
  5
F
102
{ACAD_REACTORS
330
E
102
}
330
E
  0
SCALE
  5
48
102
{ACAD_REACTORS
330
47
102
}
330
47
100
AcDbScale
 70
     0
300
1:1
140
1.0
141
1.0
290
     1
  0
SCALE
  5
49
102
{ACAD_REACTORS
330
47
102
}
330
47
100
AcDbScale
 70
     0
300
1:2
140
1.0
141
2.0
290
     0
  0
SCALE
  5
4A
102
{ACAD_REACTORS
330
47
102
}
330
47
100
AcDbScale
 70
     0
300
1:4
140
1.0
141
4.0
290
     0
  0
SCALE
  5
4B
102
{ACAD_REACTORS
330
47
102
}
330
47
100
AcDbScale
 70
     0
300
1:5
140
1.0
141
5.0
290
     0
  0
SCALE
  5
4C
102
{ACAD_REACTORS
330
47
102
}
330
47
100
AcDbScale
 70
     0
300
1:8
140
1.0
141
8.0
290
     0
  0
SCALE
  5
4D
102
{ACAD_REACTORS
330
47
102
}
330
47
100
AcDbScale
 70
     0
300
1:10
140
1.0
141
10.0
290
     0
  0
SCALE
  5
4E
102
{ACAD_REACTORS
330
47
102
}
330
47
100
AcDbScale
 70
     0
300
1:16
140
1.0
141
16.0
290
     0
  0
SCALE
  5
4F
102
{ACAD_REACTORS
330
47
102
}
330
47
100
AcDbScale
 70
     0
300
1:20
140
1.0
141
20.0
290
     0
  0
SCALE
  5
50
102
{ACAD_REACTORS
330
47
102
}
330
47
100
AcDbScale
 70
     0
300
1:30
140
1.0
141
30.0
290
     0
  0
SCALE
  5
51
102
{ACAD_REACTORS
330
47
102
}
330
47
100
AcDbScale
 70
     0
300
1:40
140
1.0
141
40.0
290
     0
  0
SCALE
  5
52
102
{ACAD_REACTORS
330
47
102
}
330
47
100
AcDbScale
 70
     0
300
1:50
140
1.0
141
50.0
290
     0
  0
SCALE
  5
53
102
{ACAD_REACTORS
330
47
102
}
330
47
100
AcDbScale
 70
     0
300
1:100
140
1.0
141
100.0
290
     0
  0
SCALE
  5
54
102
{ACAD_REACTORS
330
47
102
}
330
47
100
AcDbScale
 70
     0
300
2:1
140
2.0
141
1.0
290
     0
  0
SCALE
  5
55
102
{ACAD_REACTORS
330
47
102
}
330
47
100
AcDbScale
 70
     0
300
4:1
140
4.0
141
1.0
290
     0
  0
SCALE
  5
56
102
{ACAD_REACTORS
330
47
102
}
330
47
100
AcDbScale
 70
     0
300
8:1
140
8.0
141
1.0
290
     0
  0
SCALE
  5
57
102
{ACAD_REACTORS
330
47
102
}
330
47
100
AcDbScale
 70
     0
300
10:1
140
10.0
141
1.0
290
     0
  0
SCALE
  5
58
102
{ACAD_REACTORS
330
47
102
}
330
47
100
AcDbScale
 70
     0
300
100:1
140
100.0
141
1.0
290
     0
  0
SCALE
  5
59
102
{ACAD_REACTORS
330
47
102
}
330
47
100
AcDbScale
 70
     0
300
1/128" = 1'-0"
140
0.0078125
141
12.0
290
     0
  0
SCALE
  5
5A
102
{ACAD_REACTORS
330
47
102
}
330
47
100
AcDbScale
 70
     0
300
1/64" = 1'-0"
140
0.015625
141
12.0
290
     0
  0
SCALE
  5
5B
102
{ACAD_REACTORS
330
47
102
}
330
47
100
AcDbScale
 70
     0
300
1/32" = 1'-0"
140
0.03125
141
12.0
290
     0
  0
SCALE
  5
5C
102
{ACAD_REACTORS
330
47
102
}
330
47
100
AcDbScale
 70
     0
300
1/16" = 1'-0"
140
0.0625
141
12.0
290
     0
  0
SCALE
  5
5D
102
{ACAD_REACTORS
330
47
102
}
330
47
100
AcDbScale
 70
     0
300
3/32" = 1'-0"
140
0.09375
141
12.0
290
     0
  0
SCALE
  5
5E
102
{ACAD_REACTORS
330
47
102
}
330
47
100
AcDbScale
 70
     0
300
1/8" = 1'-0"
140
0.125
141
12.0
290
     0
  0
SCALE
  5
5F
102
{ACAD_REACTORS
330
47
102
}
330
47
100
AcDbScale
 70
     0
300
3/16" = 1'-0"
140
0.1875
141
12.0
290
     0
  0
SCALE
  5
60
102
{ACAD_REACTORS
330
47
102
}
330
47
100
AcDbScale
 70
     0
300
1/4" = 1'-0"
140
0.25
141
12.0
290
     0
  0
SCALE
  5
61
102
{ACAD_REACTORS
330
47
102
}
330
47
100
AcDbScale
 70
     0
300
3/8" = 1'-0"
140
0.375
141
12.0
290
     0
  0
SCALE
  5
62
102
{ACAD_REACTORS
330
47
102
}
330
47
100
AcDbScale
 70
     0
300
1/2" = 1'-0"
140
0.5
141
12.0
290
     0
  0
SCALE
  5
63
102
{ACAD_REACTORS
330
47
102
}
330
47
100
AcDbScale
 70
     0
300
3/4" = 1'-0"
140
0.75
141
12.0
290
     0
  0
SCALE
  5
64
102
{ACAD_REACTORS
330
47
102
}
330
47
100
AcDbScale
 70
     0
300
1" = 1'-0"
140
1.0
141
12.0
290
     0
  0
SCALE
  5
65
102
{ACAD_REACTORS
330
47
102
}
330
47
100
AcDbScale
 70
     0
300
1-1/2" = 1'-0"
140
1.5
141
12.0
290
     0
  0
SCALE
  5
66
102
{ACAD_REACTORS
330
47
102
}
330
47
100
AcDbScale
 70
     0
300
3" = 1'-0"
140
3.0
141
12.0
290
     0
  0
SCALE
  5
67
102
{ACAD_REACTORS
330
47
102
}
330
47
100
AcDbScale
 70
     0
300
6" = 1'-0"
140
6.0
141
12.0
290
     0
  0
SCALE
  5
68
102
{ACAD_REACTORS
330
47
102
}
330
47
100
AcDbScale
 70
     0
300
1'-0" = 1'-0"
140
12.0
141
12.0
290
     0
  0
ENDSEC
  0
EOF
